ISO-10303-21;
HEADER;
/* Generated by software containing ST-Developer
 * from STEP Tools, Inc. (www.steptools.com) 
 */

FILE_DESCRIPTION(
/* description */ (''),
/* implementation_level */ '2;1');

FILE_NAME(
/* name */ 
'C:\\Users\\svale\\OneDrive\\Upwork\\Controller\\Hand\\Arm Medial.ipt.
stp',
/* time_stamp */ '2021-06-20T10:01:06-05:00',
/* author */ ('svale'),
/* organization */ (''),
/* preprocessor_version */ 'ST-DEVELOPER v18.1',
/* originating_system */ 'Autodesk Inventor 2021',
/* authorisation */ '');

FILE_SCHEMA (('AUTOMOTIVE_DESIGN { 1 0 10303 214 3 1 1 }'));
ENDSEC;

DATA;
#10=MECHANICAL_DESIGN_GEOMETRIC_PRESENTATION_REPRESENTATION('',(#13),#417);
#11=SHAPE_REPRESENTATION_RELATIONSHIP('SRR','None',#424,#12);
#12=ADVANCED_BREP_SHAPE_REPRESENTATION('',(#14),#416);
#13=STYLED_ITEM('',(#433),#14);
#14=MANIFOLD_SOLID_BREP('S\X\F3lido1',#188);
#15=FACE_BOUND('',#39,.T.);
#16=FACE_BOUND('',#41,.T.);
#17=FACE_BOUND('',#45,.T.);
#18=FACE_BOUND('',#47,.T.);
#19=PLANE('',#221);
#20=PLANE('',#222);
#21=PLANE('',#230);
#22=PLANE('',#231);
#23=FACE_OUTER_BOUND('',#34,.T.);
#24=FACE_OUTER_BOUND('',#35,.T.);
#25=FACE_OUTER_BOUND('',#36,.T.);
#26=FACE_OUTER_BOUND('',#37,.T.);
#27=FACE_OUTER_BOUND('',#38,.T.);
#28=FACE_OUTER_BOUND('',#40,.T.);
#29=FACE_OUTER_BOUND('',#42,.T.);
#30=FACE_OUTER_BOUND('',#43,.T.);
#31=FACE_OUTER_BOUND('',#44,.T.);
#32=FACE_OUTER_BOUND('',#46,.T.);
#33=FACE_OUTER_BOUND('',#48,.T.);
#34=EDGE_LOOP('',(#120,#121,#122,#123));
#35=EDGE_LOOP('',(#124,#125,#126,#127,#128));
#36=EDGE_LOOP('',(#129,#130,#131,#132,#133));
#37=EDGE_LOOP('',(#134,#135,#136,#137));
#38=EDGE_LOOP('',(#138,#139));
#39=EDGE_LOOP('',(#140,#141));
#40=EDGE_LOOP('',(#142,#143));
#41=EDGE_LOOP('',(#144));
#42=EDGE_LOOP('',(#145,#146,#147,#148,#149));
#43=EDGE_LOOP('',(#150,#151,#152,#153,#154));
#44=EDGE_LOOP('',(#155,#156));
#45=EDGE_LOOP('',(#157,#158));
#46=EDGE_LOOP('',(#159,#160));
#47=EDGE_LOOP('',(#161));
#48=EDGE_LOOP('',(#162,#163,#164,#165,#166,#167,#168,#169));
#49=B_SPLINE_CURVE_WITH_KNOTS('',3,(#298,#299,#300,#301,#302,#303,#304,
#305,#306,#307,#308,#309,#310,#311,#312,#313,#314,#315,#316),
 .UNSPECIFIED.,.F.,.F.,(4,2,2,2,3,2,2,2,4),(0.922537325049048,0.999310505714261,
1.07608368637947,1.15306672655577,1.23004976673206,1.30703280690836,1.38401584708465,
1.46078902774987,1.53756220841508),.UNSPECIFIED.);
#50=B_SPLINE_CURVE_WITH_KNOTS('',3,(#325,#326,#327,#328,#329,#330,#331,
#332,#333,#334),.UNSPECIFIED.,.F.,.F.,(4,2,2,2,4),(1.23004976673206,1.30703280690836,
1.38401584708465,1.46078902774987,1.53756220841508),.UNSPECIFIED.);
#51=B_SPLINE_CURVE_WITH_KNOTS('',3,(#336,#337,#338,#339,#340,#341,#342,
#343,#344,#345),.UNSPECIFIED.,.F.,.F.,(4,2,2,2,4),(0.922537325049048,0.999310505714261,
1.07608368637947,1.15306672655577,1.23004976673206),.UNSPECIFIED.);
#52=B_SPLINE_CURVE_WITH_KNOTS('',3,(#357,#358,#359,#360,#361,#362,#363,
#364,#365,#366,#367,#368,#369,#370,#371,#372,#373,#374),.UNSPECIFIED.,.F.,
 .F.,(4,2,2,2,2,2,2,2,4),(0.307512441683016,0.384285622348229,0.461058803013443,
0.538041843189737,0.615024883366032,0.692007923542327,0.768990963718621,
0.845764144383835,0.922537325049048),.UNSPECIFIED.);
#53=B_SPLINE_CURVE_WITH_KNOTS('',3,(#389,#390,#391,#392,#393,#394,#395,
#396,#397,#398),.UNSPECIFIED.,.F.,.F.,(4,2,2,2,4),(0.615024883366032,0.692007923542327,
0.768990963718621,0.845764144383835,0.922537325049048),.UNSPECIFIED.);
#54=B_SPLINE_CURVE_WITH_KNOTS('',3,(#399,#400,#401,#402,#403,#404,#405,
#406,#407,#408),.UNSPECIFIED.,.F.,.F.,(4,2,2,2,4),(0.307512441683016,0.384285622348229,
0.461058803013443,0.538041843189737,0.615024883366032),.UNSPECIFIED.);
#55=CIRCLE('',#209,4.);
#56=CIRCLE('',#210,4.);
#57=CIRCLE('',#212,4.);
#58=CIRCLE('',#213,4.);
#59=CIRCLE('',#215,1.3);
#60=CIRCLE('',#216,1.3);
#61=CIRCLE('',#217,1.3);
#62=CIRCLE('',#219,4.);
#63=CIRCLE('',#220,4.);
#64=CIRCLE('',#224,0.7835);
#65=CIRCLE('',#225,0.7835);
#66=CIRCLE('',#226,0.7835);
#67=CIRCLE('',#228,4.);
#68=CIRCLE('',#229,4.);
#69=LINE('',#294,#74);
#70=LINE('',#321,#75);
#71=LINE('',#353,#76);
#72=LINE('',#384,#77);
#73=LINE('',#413,#78);
#74=VECTOR('',#237,4.);
#75=VECTOR('',#244,4.);
#76=VECTOR('',#255,1.3);
#77=VECTOR('',#274,0.7835);
#78=VECTOR('',#289,2.);
#79=VERTEX_POINT('',#292);
#80=VERTEX_POINT('',#293);
#81=VERTEX_POINT('',#295);
#82=VERTEX_POINT('',#297);
#83=VERTEX_POINT('',#319);
#84=VERTEX_POINT('',#320);
#85=VERTEX_POINT('',#322);
#86=VERTEX_POINT('',#324);
#87=VERTEX_POINT('',#335);
#88=VERTEX_POINT('',#348);
#89=VERTEX_POINT('',#349);
#90=VERTEX_POINT('',#352);
#91=VERTEX_POINT('',#379);
#92=VERTEX_POINT('',#380);
#93=VERTEX_POINT('',#383);
#94=VERTEX_POINT('',#388);
#95=EDGE_CURVE('',#79,#80,#69,.T.);
#96=EDGE_CURVE('',#79,#81,#55,.T.);
#97=EDGE_CURVE('',#82,#81,#49,.T.);
#98=EDGE_CURVE('',#80,#82,#56,.T.);
#99=EDGE_CURVE('',#83,#84,#70,.T.);
#100=EDGE_CURVE('',#85,#83,#57,.T.);
#101=EDGE_CURVE('',#86,#85,#50,.T.);
#102=EDGE_CURVE('',#87,#86,#51,.T.);
#103=EDGE_CURVE('',#87,#84,#58,.T.);
#104=EDGE_CURVE('',#88,#89,#59,.T.);
#105=EDGE_CURVE('',#89,#88,#60,.T.);
#106=EDGE_CURVE('',#89,#90,#71,.T.);
#107=EDGE_CURVE('',#90,#90,#61,.T.);
#108=EDGE_CURVE('',#84,#87,#62,.T.);
#109=EDGE_CURVE('',#85,#87,#52,.T.);
#110=EDGE_CURVE('',#83,#85,#63,.T.);
#111=EDGE_CURVE('',#91,#92,#64,.T.);
#112=EDGE_CURVE('',#92,#91,#65,.T.);
#113=EDGE_CURVE('',#92,#93,#72,.T.);
#114=EDGE_CURVE('',#93,#93,#66,.T.);
#115=EDGE_CURVE('',#82,#80,#67,.T.);
#116=EDGE_CURVE('',#94,#82,#53,.T.);
#117=EDGE_CURVE('',#81,#94,#54,.T.);
#118=EDGE_CURVE('',#81,#79,#68,.T.);
#119=EDGE_CURVE('',#86,#94,#73,.T.);
#120=ORIENTED_EDGE('',*,*,#95,.F.);
#121=ORIENTED_EDGE('',*,*,#96,.T.);
#122=ORIENTED_EDGE('',*,*,#97,.F.);
#123=ORIENTED_EDGE('',*,*,#98,.F.);
#124=ORIENTED_EDGE('',*,*,#99,.F.);
#125=ORIENTED_EDGE('',*,*,#100,.F.);
#126=ORIENTED_EDGE('',*,*,#101,.F.);
#127=ORIENTED_EDGE('',*,*,#102,.F.);
#128=ORIENTED_EDGE('',*,*,#103,.T.);
#129=ORIENTED_EDGE('',*,*,#104,.F.);
#130=ORIENTED_EDGE('',*,*,#105,.F.);
#131=ORIENTED_EDGE('',*,*,#106,.T.);
#132=ORIENTED_EDGE('',*,*,#107,.F.);
#133=ORIENTED_EDGE('',*,*,#106,.F.);
#134=ORIENTED_EDGE('',*,*,#99,.T.);
#135=ORIENTED_EDGE('',*,*,#108,.T.);
#136=ORIENTED_EDGE('',*,*,#109,.F.);
#137=ORIENTED_EDGE('',*,*,#110,.F.);
#138=ORIENTED_EDGE('',*,*,#103,.F.);
#139=ORIENTED_EDGE('',*,*,#108,.F.);
#140=ORIENTED_EDGE('',*,*,#104,.T.);
#141=ORIENTED_EDGE('',*,*,#105,.T.);
#142=ORIENTED_EDGE('',*,*,#100,.T.);
#143=ORIENTED_EDGE('',*,*,#110,.T.);
#144=ORIENTED_EDGE('',*,*,#107,.T.);
#145=ORIENTED_EDGE('',*,*,#111,.F.);
#146=ORIENTED_EDGE('',*,*,#112,.F.);
#147=ORIENTED_EDGE('',*,*,#113,.T.);
#148=ORIENTED_EDGE('',*,*,#114,.F.);
#149=ORIENTED_EDGE('',*,*,#113,.F.);
#150=ORIENTED_EDGE('',*,*,#95,.T.);
#151=ORIENTED_EDGE('',*,*,#115,.F.);
#152=ORIENTED_EDGE('',*,*,#116,.F.);
#153=ORIENTED_EDGE('',*,*,#117,.F.);
#154=ORIENTED_EDGE('',*,*,#118,.T.);
#155=ORIENTED_EDGE('',*,*,#115,.T.);
#156=ORIENTED_EDGE('',*,*,#98,.T.);
#157=ORIENTED_EDGE('',*,*,#111,.T.);
#158=ORIENTED_EDGE('',*,*,#112,.T.);
#159=ORIENTED_EDGE('',*,*,#118,.F.);
#160=ORIENTED_EDGE('',*,*,#96,.F.);
#161=ORIENTED_EDGE('',*,*,#114,.T.);
#162=ORIENTED_EDGE('',*,*,#102,.T.);
#163=ORIENTED_EDGE('',*,*,#119,.T.);
#164=ORIENTED_EDGE('',*,*,#116,.T.);
#165=ORIENTED_EDGE('',*,*,#97,.T.);
#166=ORIENTED_EDGE('',*,*,#117,.T.);
#167=ORIENTED_EDGE('',*,*,#119,.F.);
#168=ORIENTED_EDGE('',*,*,#101,.T.);
#169=ORIENTED_EDGE('',*,*,#109,.T.);
#170=CYLINDRICAL_SURFACE('',#208,4.);
#171=CYLINDRICAL_SURFACE('',#211,4.);
#172=CYLINDRICAL_SURFACE('',#214,1.3);
#173=CYLINDRICAL_SURFACE('',#218,4.);
#174=CYLINDRICAL_SURFACE('',#223,0.7835);
#175=CYLINDRICAL_SURFACE('',#227,4.);
#176=CYLINDRICAL_SURFACE('',#232,2.);
#177=ADVANCED_FACE('',(#23),#170,.T.);
#178=ADVANCED_FACE('',(#24),#171,.T.);
#179=ADVANCED_FACE('',(#25),#172,.F.);
#180=ADVANCED_FACE('',(#26),#173,.T.);
#181=ADVANCED_FACE('',(#27,#15),#19,.T.);
#182=ADVANCED_FACE('',(#28,#16),#20,.F.);
#183=ADVANCED_FACE('',(#29),#174,.F.);
#184=ADVANCED_FACE('',(#30),#175,.T.);
#185=ADVANCED_FACE('',(#31,#17),#21,.F.);
#186=ADVANCED_FACE('',(#32,#18),#22,.T.);
#187=ADVANCED_FACE('',(#33),#176,.T.);
#188=CLOSED_SHELL('',(#177,#178,#179,#180,#181,#182,#183,#184,#185,#186,
#187));
#189=DERIVED_UNIT_ELEMENT(#191,1.);
#190=DERIVED_UNIT_ELEMENT(#419,3.);
#191=(
MASS_UNIT()
NAMED_UNIT(*)
SI_UNIT($,.GRAM.)
);
#192=DERIVED_UNIT((#189,#190));
#193=MEASURE_REPRESENTATION_ITEM('density measure',
POSITIVE_RATIO_MEASURE(1.),#192);
#194=PROPERTY_DEFINITION_REPRESENTATION(#199,#196);
#195=PROPERTY_DEFINITION_REPRESENTATION(#200,#197);
#196=REPRESENTATION('material name',(#198),#416);
#197=REPRESENTATION('density',(#193),#416);
#198=DESCRIPTIVE_REPRESENTATION_ITEM('Gen\X\E9rico','Gen\X\E9rico');
#199=PROPERTY_DEFINITION('material property','material name',#426);
#200=PROPERTY_DEFINITION('material property','density of part',#426);
#201=DATE_TIME_ROLE('creation_date');
#202=APPLIED_DATE_AND_TIME_ASSIGNMENT(#203,#201,(#426));
#203=DATE_AND_TIME(#204,#205);
#204=CALENDAR_DATE(2021,25,4);
#205=LOCAL_TIME(0,0,0.,#206);
#206=COORDINATED_UNIVERSAL_TIME_OFFSET(0,0,.BEHIND.);
#207=AXIS2_PLACEMENT_3D('placement',#290,#233,#234);
#208=AXIS2_PLACEMENT_3D('',#291,#235,#236);
#209=AXIS2_PLACEMENT_3D('',#296,#238,#239);
#210=AXIS2_PLACEMENT_3D('',#317,#240,#241);
#211=AXIS2_PLACEMENT_3D('',#318,#242,#243);
#212=AXIS2_PLACEMENT_3D('',#323,#245,#246);
#213=AXIS2_PLACEMENT_3D('',#346,#247,#248);
#214=AXIS2_PLACEMENT_3D('',#347,#249,#250);
#215=AXIS2_PLACEMENT_3D('',#350,#251,#252);
#216=AXIS2_PLACEMENT_3D('',#351,#253,#254);
#217=AXIS2_PLACEMENT_3D('',#354,#256,#257);
#218=AXIS2_PLACEMENT_3D('',#355,#258,#259);
#219=AXIS2_PLACEMENT_3D('',#356,#260,#261);
#220=AXIS2_PLACEMENT_3D('',#375,#262,#263);
#221=AXIS2_PLACEMENT_3D('',#376,#264,#265);
#222=AXIS2_PLACEMENT_3D('',#377,#266,#267);
#223=AXIS2_PLACEMENT_3D('',#378,#268,#269);
#224=AXIS2_PLACEMENT_3D('',#381,#270,#271);
#225=AXIS2_PLACEMENT_3D('',#382,#272,#273);
#226=AXIS2_PLACEMENT_3D('',#385,#275,#276);
#227=AXIS2_PLACEMENT_3D('',#386,#277,#278);
#228=AXIS2_PLACEMENT_3D('',#387,#279,#280);
#229=AXIS2_PLACEMENT_3D('',#409,#281,#282);
#230=AXIS2_PLACEMENT_3D('',#410,#283,#284);
#231=AXIS2_PLACEMENT_3D('',#411,#285,#286);
#232=AXIS2_PLACEMENT_3D('',#412,#287,#288);
#233=DIRECTION('axis',(0.,0.,1.));
#234=DIRECTION('refdir',(1.,0.,0.));
#235=DIRECTION('center_axis',(0.,0.,1.));
#236=DIRECTION('ref_axis',(1.,0.,0.));
#237=DIRECTION('',(0.,0.,-1.));
#238=DIRECTION('center_axis',(0.,0.,-1.));
#239=DIRECTION('ref_axis',(1.,0.,0.));
#240=DIRECTION('center_axis',(0.,0.,-1.));
#241=DIRECTION('ref_axis',(1.,0.,0.));
#242=DIRECTION('center_axis',(0.,0.,-1.));
#243=DIRECTION('ref_axis',(-1.,0.,0.));
#244=DIRECTION('',(0.,0.,-1.));
#245=DIRECTION('center_axis',(0.,0.,1.));
#246=DIRECTION('ref_axis',(-1.,0.,0.));
#247=DIRECTION('center_axis',(0.,0.,1.));
#248=DIRECTION('ref_axis',(-1.,0.,0.));
#249=DIRECTION('center_axis',(0.,0.,-1.));
#250=DIRECTION('ref_axis',(-1.,0.,0.));
#251=DIRECTION('center_axis',(0.,0.,1.));
#252=DIRECTION('ref_axis',(-1.,0.,0.));
#253=DIRECTION('center_axis',(0.,0.,1.));
#254=DIRECTION('ref_axis',(-1.,0.,0.));
#255=DIRECTION('',(0.,0.,1.));
#256=DIRECTION('center_axis',(0.,0.,-1.));
#257=DIRECTION('ref_axis',(-1.,0.,0.));
#258=DIRECTION('center_axis',(0.,0.,-1.));
#259=DIRECTION('ref_axis',(-1.,0.,0.));
#260=DIRECTION('center_axis',(0.,0.,1.));
#261=DIRECTION('ref_axis',(-1.,0.,0.));
#262=DIRECTION('center_axis',(0.,0.,1.));
#263=DIRECTION('ref_axis',(-1.,0.,0.));
#264=DIRECTION('center_axis',(0.,0.,-1.));
#265=DIRECTION('ref_axis',(-1.,0.,0.));
#266=DIRECTION('center_axis',(0.,0.,-1.));
#267=DIRECTION('ref_axis',(-1.,0.,0.));
#268=DIRECTION('center_axis',(0.,0.,-1.));
#269=DIRECTION('ref_axis',(-1.,0.,0.));
#270=DIRECTION('center_axis',(0.,0.,1.));
#271=DIRECTION('ref_axis',(-1.,0.,0.));
#272=DIRECTION('center_axis',(0.,0.,1.));
#273=DIRECTION('ref_axis',(-1.,0.,0.));
#274=DIRECTION('',(0.,0.,1.));
#275=DIRECTION('center_axis',(0.,0.,-1.));
#276=DIRECTION('ref_axis',(-1.,0.,0.));
#277=DIRECTION('center_axis',(0.,0.,1.));
#278=DIRECTION('ref_axis',(1.,0.,0.));
#279=DIRECTION('center_axis',(0.,0.,-1.));
#280=DIRECTION('ref_axis',(1.,0.,0.));
#281=DIRECTION('center_axis',(0.,0.,-1.));
#282=DIRECTION('ref_axis',(1.,0.,0.));
#283=DIRECTION('center_axis',(0.,0.,1.));
#284=DIRECTION('ref_axis',(1.,0.,0.));
#285=DIRECTION('center_axis',(0.,0.,1.));
#286=DIRECTION('ref_axis',(1.,0.,0.));
#287=DIRECTION('center_axis',(1.,0.,0.));
#288=DIRECTION('ref_axis',(0.,1.,0.));
#289=DIRECTION('',(-1.,0.,0.));
#290=CARTESIAN_POINT('',(0.,0.,0.));
#291=CARTESIAN_POINT('Origin',(3.,0.,0.));
#292=CARTESIAN_POINT('',(-1.,-4.89858719658941E-16,2.));
#293=CARTESIAN_POINT('',(-1.,-4.89858719658941E-16,-2.));
#294=CARTESIAN_POINT('',(-1.,-4.89858719658941E-16,0.));
#295=CARTESIAN_POINT('',(7.,0.,2.));
#296=CARTESIAN_POINT('Origin',(3.,0.,2.));
#297=CARTESIAN_POINT('',(7.,0.,-2.));
#298=CARTESIAN_POINT('Ctrl Pts',(7.,6.93889390390723E-17,-2.));
#299=CARTESIAN_POINT('Ctrl Pts',(7.,0.255910602217378,-2.));
#300=CARTESIAN_POINT('Ctrl Pts',(6.97318393670131,0.525890150977711,-1.94792781173826));
#301=CARTESIAN_POINT('Ctrl Pts',(6.87652968207896,1.01748151622875,-1.74233015984916));
#302=CARTESIAN_POINT('Ctrl Pts',(6.807733220141,1.23939333961253,-1.58903378513366));
#303=CARTESIAN_POINT('Ctrl Pts',(6.67540093509768,1.58951165626207,-1.23891546848412));
#304=CARTESIAN_POINT('Ctrl Pts',(6.60239202492136,1.74245741947245,-1.01716471901564));
#305=CARTESIAN_POINT('Ctrl Pts',(6.49565087190587,1.94777116895352,-0.526277202526571));
#306=CARTESIAN_POINT('Ctrl Pts',(6.46410161513776,2.,-0.256610133920982));
#307=CARTESIAN_POINT('Ctrl Pts',(6.46410161513776,2.,0.));
#308=CARTESIAN_POINT('Ctrl Pts',(6.46410161513776,2.,0.256610133920982));
#309=CARTESIAN_POINT('Ctrl Pts',(6.49565087190587,1.94777116895352,0.526277202526571));
#310=CARTESIAN_POINT('Ctrl Pts',(6.60239202492136,1.74245741947245,1.01716471901564));
#311=CARTESIAN_POINT('Ctrl Pts',(6.67540093509768,1.58951165626207,1.23891546848412));
#312=CARTESIAN_POINT('Ctrl Pts',(6.807733220141,1.23939333961253,1.58903378513366));
#313=CARTESIAN_POINT('Ctrl Pts',(6.87652968207896,1.01748151622875,1.74233015984916));
#314=CARTESIAN_POINT('Ctrl Pts',(6.97318393670131,0.52589015097771,1.94792781173826));
#315=CARTESIAN_POINT('Ctrl Pts',(7.,0.255910602217377,2.));
#316=CARTESIAN_POINT('Ctrl Pts',(7.,-4.16333634234434E-16,2.));
#317=CARTESIAN_POINT('Origin',(3.,0.,-2.));
#318=CARTESIAN_POINT('Origin',(47.,0.,0.));
#319=CARTESIAN_POINT('',(51.,-4.89858719658941E-16,2.));
#320=CARTESIAN_POINT('',(51.,-4.89858719658941E-16,-2.));
#321=CARTESIAN_POINT('',(51.,-4.89858719658941E-16,0.));
#322=CARTESIAN_POINT('',(43.,0.,2.));
#323=CARTESIAN_POINT('Origin',(47.,0.,2.));
#324=CARTESIAN_POINT('',(43.5358983848623,-2.,-2.44929359829471E-16));
#325=CARTESIAN_POINT('Ctrl Pts',(43.5358983848623,-2.,2.77555756156289E-16));
#326=CARTESIAN_POINT('Ctrl Pts',(43.5358983848623,-2.,0.256610133920983));
#327=CARTESIAN_POINT('Ctrl Pts',(43.5043491280941,-1.94777116895352,0.526277202526571));
#328=CARTESIAN_POINT('Ctrl Pts',(43.3976079750786,-1.74245741947245,1.01716471901564));
#329=CARTESIAN_POINT('Ctrl Pts',(43.3245990649023,-1.58951165626207,1.23891546848412));
#330=CARTESIAN_POINT('Ctrl Pts',(43.192266779859,-1.23939333961253,1.58903378513366));
#331=CARTESIAN_POINT('Ctrl Pts',(43.123470317921,-1.01748151622875,1.74233015984916));
#332=CARTESIAN_POINT('Ctrl Pts',(43.0268160632987,-0.525890150977709,1.94792781173826));
#333=CARTESIAN_POINT('Ctrl Pts',(43.,-0.255910602217377,2.));
#334=CARTESIAN_POINT('Ctrl Pts',(43.,2.77555756156289E-16,2.));
#335=CARTESIAN_POINT('',(43.,0.,-2.));
#336=CARTESIAN_POINT('Ctrl Pts',(43.,0.,-2.));
#337=CARTESIAN_POINT('Ctrl Pts',(43.,-0.255910602217378,-2.));
#338=CARTESIAN_POINT('Ctrl Pts',(43.0268160632987,-0.525890150977709,-1.94792781173826));
#339=CARTESIAN_POINT('Ctrl Pts',(43.123470317921,-1.01748151622875,-1.74233015984916));
#340=CARTESIAN_POINT('Ctrl Pts',(43.192266779859,-1.23939333961253,-1.58903378513366));
#341=CARTESIAN_POINT('Ctrl Pts',(43.3245990649023,-1.58951165626207,-1.23891546848412));
#342=CARTESIAN_POINT('Ctrl Pts',(43.3976079750786,-1.74245741947245,-1.01716471901565));
#343=CARTESIAN_POINT('Ctrl Pts',(43.5043491280941,-1.94777116895352,-0.526277202526573));
#344=CARTESIAN_POINT('Ctrl Pts',(43.5358983848623,-2.,-0.256610133920982));
#345=CARTESIAN_POINT('Ctrl Pts',(43.5358983848623,-2.,8.67361737988404E-16));
#346=CARTESIAN_POINT('Origin',(47.,0.,-2.));
#347=CARTESIAN_POINT('Origin',(47.,0.,50.7638892618065));
#348=CARTESIAN_POINT('',(45.7,0.,-2.));
#349=CARTESIAN_POINT('',(48.3,-1.59204083889156E-16,-2.));
#350=CARTESIAN_POINT('Origin',(47.,0.,-2.));
#351=CARTESIAN_POINT('Origin',(47.,0.,-2.));
#352=CARTESIAN_POINT('',(48.3,-1.59204083889156E-16,2.));
#353=CARTESIAN_POINT('',(48.3,-1.59204083889156E-16,50.7638892618065));
#354=CARTESIAN_POINT('Origin',(47.,0.,2.));
#355=CARTESIAN_POINT('Origin',(47.,0.,0.));
#356=CARTESIAN_POINT('Origin',(47.,0.,-2.));
#357=CARTESIAN_POINT('Ctrl Pts',(43.,1.73472347597681E-16,2.));
#358=CARTESIAN_POINT('Ctrl Pts',(43.,0.255910602217378,2.));
#359=CARTESIAN_POINT('Ctrl Pts',(43.0268160632987,0.525890150977709,1.94792781173826));
#360=CARTESIAN_POINT('Ctrl Pts',(43.123470317921,1.01748151622875,1.74233015984916));
#361=CARTESIAN_POINT('Ctrl Pts',(43.192266779859,1.23939333961253,1.58903378513366));
#362=CARTESIAN_POINT('Ctrl Pts',(43.3245990649023,1.58951165626207,1.23891546848412));
#363=CARTESIAN_POINT('Ctrl Pts',(43.3976079750786,1.74245741947245,1.01716471901564));
#364=CARTESIAN_POINT('Ctrl Pts',(43.5043491280941,1.94777116895352,0.526277202526571));
#365=CARTESIAN_POINT('Ctrl Pts',(43.5358983848623,2.,0.256610133920982));
#366=CARTESIAN_POINT('Ctrl Pts',(43.5358983848623,2.,-0.256610133920982));
#367=CARTESIAN_POINT('Ctrl Pts',(43.5043491280941,1.94777116895352,-0.526277202526571));
#368=CARTESIAN_POINT('Ctrl Pts',(43.3976079750786,1.74245741947245,-1.01716471901564));
#369=CARTESIAN_POINT('Ctrl Pts',(43.3245990649023,1.58951165626207,-1.23891546848412));
#370=CARTESIAN_POINT('Ctrl Pts',(43.192266779859,1.23939333961253,-1.58903378513366));
#371=CARTESIAN_POINT('Ctrl Pts',(43.123470317921,1.01748151622875,-1.74233015984916));
#372=CARTESIAN_POINT('Ctrl Pts',(43.0268160632987,0.525890150977709,-1.94792781173826));
#373=CARTESIAN_POINT('Ctrl Pts',(43.,0.255910602217378,-2.));
#374=CARTESIAN_POINT('Ctrl Pts',(43.,3.46944695195361E-16,-2.));
#375=CARTESIAN_POINT('Origin',(47.,0.,2.));
#376=CARTESIAN_POINT('Origin',(47.,0.,-2.));
#377=CARTESIAN_POINT('Origin',(47.,0.,2.));
#378=CARTESIAN_POINT('Origin',(3.,0.,49.7786443433215));
#379=CARTESIAN_POINT('',(2.2165,0.,-2.));
#380=CARTESIAN_POINT('',(3.7835,-9.59510767131951E-17,-2.));
#381=CARTESIAN_POINT('Origin',(3.,0.,-2.));
#382=CARTESIAN_POINT('Origin',(3.,0.,-2.));
#383=CARTESIAN_POINT('',(3.7835,-9.59510767131951E-17,2.));
#384=CARTESIAN_POINT('',(3.7835,-9.59510767131951E-17,49.7786443433215));
#385=CARTESIAN_POINT('Origin',(3.,0.,2.));
#386=CARTESIAN_POINT('Origin',(3.,0.,0.));
#387=CARTESIAN_POINT('Origin',(3.,0.,-2.));
#388=CARTESIAN_POINT('',(6.46410161513776,-2.,-2.44929359829471E-16));
#389=CARTESIAN_POINT('Ctrl Pts',(6.46410161513776,-2.,-2.77555756156289E-16));
#390=CARTESIAN_POINT('Ctrl Pts',(6.46410161513776,-2.,-0.256610133920982));
#391=CARTESIAN_POINT('Ctrl Pts',(6.49565087190587,-1.94777116895352,-0.526277202526571));
#392=CARTESIAN_POINT('Ctrl Pts',(6.60239202492136,-1.74245741947245,-1.01716471901564));
#393=CARTESIAN_POINT('Ctrl Pts',(6.67540093509768,-1.58951165626207,-1.23891546848412));
#394=CARTESIAN_POINT('Ctrl Pts',(6.807733220141,-1.23939333961253,-1.58903378513366));
#395=CARTESIAN_POINT('Ctrl Pts',(6.87652968207896,-1.01748151622875,-1.74233015984916));
#396=CARTESIAN_POINT('Ctrl Pts',(6.97318393670131,-0.52589015097771,-1.94792781173826));
#397=CARTESIAN_POINT('Ctrl Pts',(7.,-0.255910602217378,-2.));
#398=CARTESIAN_POINT('Ctrl Pts',(7.,2.77555756156289E-16,-2.));
#399=CARTESIAN_POINT('Ctrl Pts',(7.,-2.08166817117217E-16,2.));
#400=CARTESIAN_POINT('Ctrl Pts',(7.,-0.255910602217378,2.));
#401=CARTESIAN_POINT('Ctrl Pts',(6.97318393670131,-0.525890150977711,1.94792781173826));
#402=CARTESIAN_POINT('Ctrl Pts',(6.87652968207896,-1.01748151622875,1.74233015984916));
#403=CARTESIAN_POINT('Ctrl Pts',(6.807733220141,-1.23939333961253,1.58903378513366));
#404=CARTESIAN_POINT('Ctrl Pts',(6.67540093509768,-1.58951165626207,1.23891546848412));
#405=CARTESIAN_POINT('Ctrl Pts',(6.60239202492136,-1.74245741947245,1.01716471901564));
#406=CARTESIAN_POINT('Ctrl Pts',(6.49565087190587,-1.94777116895352,0.526277202526571));
#407=CARTESIAN_POINT('Ctrl Pts',(6.46410161513776,-2.,0.256610133920982));
#408=CARTESIAN_POINT('Ctrl Pts',(6.46410161513776,-2.,1.38777878078145E-16));
#409=CARTESIAN_POINT('Origin',(3.,0.,2.));
#410=CARTESIAN_POINT('Origin',(3.,0.,-2.));
#411=CARTESIAN_POINT('Origin',(3.,0.,2.));
#412=CARTESIAN_POINT('Origin',(0.,0.,0.));
#413=CARTESIAN_POINT('',(0.,-2.,-2.44929359829471E-16));
#414=UNCERTAINTY_MEASURE_WITH_UNIT(LENGTH_MEASURE(0.01),#418,
'DISTANCE_ACCURACY_VALUE',
'Maximum model space distance between geometric entities at asserted c
onnectivities');
#415=UNCERTAINTY_MEASURE_WITH_UNIT(LENGTH_MEASURE(0.01),#418,
'DISTANCE_ACCURACY_VALUE',
'Maximum model space distance between geometric entities at asserted c
onnectivities');
#416=(
GEOMETRIC_REPRESENTATION_CONTEXT(3)
GLOBAL_UNCERTAINTY_ASSIGNED_CONTEXT((#414))
GLOBAL_UNIT_ASSIGNED_CONTEXT((#418,#420,#421))
REPRESENTATION_CONTEXT('','3D')
);
#417=(
GEOMETRIC_REPRESENTATION_CONTEXT(3)
GLOBAL_UNCERTAINTY_ASSIGNED_CONTEXT((#415))
GLOBAL_UNIT_ASSIGNED_CONTEXT((#418,#420,#421))
REPRESENTATION_CONTEXT('','3D')
);
#418=(
LENGTH_UNIT()
NAMED_UNIT(*)
SI_UNIT(.MILLI.,.METRE.)
);
#419=(
LENGTH_UNIT()
NAMED_UNIT(*)
SI_UNIT(.CENTI.,.METRE.)
);
#420=(
NAMED_UNIT(*)
PLANE_ANGLE_UNIT()
SI_UNIT($,.RADIAN.)
);
#421=(
NAMED_UNIT(*)
SI_UNIT($,.STERADIAN.)
SOLID_ANGLE_UNIT()
);
#422=SHAPE_DEFINITION_REPRESENTATION(#423,#424);
#423=PRODUCT_DEFINITION_SHAPE('',$,#426);
#424=SHAPE_REPRESENTATION('',(#207),#416);
#425=PRODUCT_DEFINITION_CONTEXT('part definition',#430,'design');
#426=PRODUCT_DEFINITION('Arm Medial','Arm Medial',#427,#425);
#427=PRODUCT_DEFINITION_FORMATION('',$,#432);
#428=PRODUCT_RELATED_PRODUCT_CATEGORY('Arm Medial','Arm Medial',(#432));
#429=APPLICATION_PROTOCOL_DEFINITION('international standard',
'automotive_design',2009,#430);
#430=APPLICATION_CONTEXT(
'Core Data for Automotive Mechanical Design Process');
#431=PRODUCT_CONTEXT('part definition',#430,'mechanical');
#432=PRODUCT('Arm Medial','Arm Medial',$,(#431));
#433=PRESENTATION_STYLE_ASSIGNMENT((#434));
#434=SURFACE_STYLE_USAGE(.BOTH.,#437);
#435=SURFACE_STYLE_RENDERING_WITH_PROPERTIES($,#441,(#436));
#436=SURFACE_STYLE_TRANSPARENT(0.);
#437=SURFACE_SIDE_STYLE('',(#438,#435));
#438=SURFACE_STYLE_FILL_AREA(#439);
#439=FILL_AREA_STYLE('',(#440));
#440=FILL_AREA_STYLE_COLOUR('',#441);
#441=COLOUR_RGB('',0.749019607843137,0.749019607843137,0.749019607843137);
ENDSEC;
END-ISO-10303-21;
